0
SECTION
2
HEADER
9
$INSUNITS
70
4
9
$ACADVER
1
AC1014
9
$HANDSEED
5
FFFF
0
ENDSEC
0
SECTION
2
TABLES
0
TABLE
2
VPORT
5
8
100
AcDbSymbolTable
0
ENDTAB
0
TABLE
2
LTYPE
5
5
100
AcDbSymbolTable
0
LTYPE
5
14
100
AcDbSymbolTableRecord
100
AcDbLinetypeTableRecord
2
BYBLOCK
70
0
0
LTYPE
5
15
100
AcDbSymbolTableRecord
100
AcDbLinetypeTableRecord
2
BYLAYER
70
0
0
ENDTAB
0
TABLE
2
LAYER
5
2
100
AcDbSymbolTable
70
2
0
LAYER
5
50
100
AcDbSymbolTableRecord
100
AcDbLayerTableRecord
2
0
70
0
6
CONTINUOUS
0
ENDTAB
0
TABLE
2
STYLE
5
3
100
AcDbSymbolTable
70
1
0
STYLE
5
11
100
AcDbSymbolTableRecord
100
AcDbTextStyleTableRecord
2
STANDARD
70
0
0
ENDTAB
0
TABLE
2
VIEW
5
6
100
AcDbSymbolTable
70
0
0
ENDTAB
0
TABLE
2
UCS
5
7
100
AcDbSymbolTable
70
0
0
ENDTAB
0
TABLE
2
APPID
5
9
100
AcDbSymbolTable
70
2
0
APPID
5
12
100
AcDbSymbolTableRecord
100
AcDbRegAppTableRecord
2
ACAD
70
0
0
ENDTAB
0
TABLE
2
DIMSTYLE
5
A
100
AcDbSymbolTable
70
1
0
ENDTAB
0
TABLE
2
BLOCK_RECORD
5
1
100
AcDbSymbolTable
70
1
0
BLOCK_RECORD
5
1F
100
AcDbSymbolTableRecord
100
AcDbBlockTableRecord
2
*MODEL_SPACE
0
BLOCK_RECORD
5
1B
100
AcDbSymbolTableRecord
100
AcDbBlockTableRecord
2
*PAPER_SPACE
0
ENDTAB
0
ENDSEC
0
SECTION
2
BLOCKS
0
BLOCK
5
20
100
AcDbEntity
100
AcDbBlockBegin
2
*MODEL_SPACE
0
ENDBLK
5
21
100
AcDbEntity
100
AcDbBlockEnd
0
BLOCK
5
1C
100
AcDbEntity
100
AcDbBlockBegin
2
*PAPER_SPACE
0
ENDBLK
5
1D
100
AcDbEntity
100
AcDbBlockEnd
0
ENDSEC
0
SECTION
2
ENTITIES
0
LWPOLYLINE
5
100
100
AcDbEntity
8
0
100
AcDbPolyline
90
28
70
1
43
0.0
10
776.80000000000007
20
144.487600000046
10
776.80000000000018
20
48.475200000046087
10
1068.4000000000003
20
-351.59999999995455
10
1068.4000000000005
20
-359.99999999995441
10
1113.4000000000005
20
-359.99999999995453
10
1113.4000000000005
20
-351.59999999995449
10
1160.0000000000014
20
-351.59999999995318
10
1159.9999999999959
20
-319.75000000003308
10
1168.4000000000005
20
-319.75000000003314
10
1168.4000000000005
20
-200.2499999999668
10
1160.0000000000057
20
-200.2499999999668
10
1160.0000000000002
20
-59.749999999961858
10
1168.4000000000003
20
-59.749999999961858
10
1168.4000000000003
20
59.750000000052985
10
1160.0000000000002
20
59.750000000052978
10
1160.0000000000002
20
200.25000000005781
10
1168.4000000000001
20
200.25000000005787
10
1168.4000000000001
20
319.75000000012409
10
1159.9999999999995
20
319.75000000012409
10
1160.0000000000007
20
351.60000000004658
10
1028.1500000000003
20
351.60000000004663
10
1028.1500000000003
20
360.00000000004582
10
908.65000000000009
20
360.0000000000457
10
908.65000000000009
20
351.60000000004561
10
776.80000000000166
20
351.60000000004618
10
776.80000000000086
20
263.98760000004609
10
768.4000000000002
20
263.98760000004614
10
768.40000000000032
20
144.48760000004603
0
CIRCLE
5
101
100
AcDbEntity
8
0
100
AcDbCircle
10
936.28074993961889
20
-144.86601108279768
30
0
40
1.5000000000000568
210
-0
220
0
230
1
0
CIRCLE
5
102
100
AcDbEntity
8
0
100
AcDbCircle
10
800.8080092755938
20
41.002589108245218
30
0
40
1.5000000000000568
210
-0
220
0
230
1
0
CIRCLE
5
103
100
AcDbEntity
8
0
100
AcDbCircle
10
1071.753490603644
20
-330.73461127384064
30
0
40
1.4999999999999858
210
-0
220
0
230
1
0
CIRCLE
5
104
100
AcDbEntity
8
0
100
AcDbCircle
10
968.40000000000009
20
355.80000000004566
30
0
40
1.5000000000000568
210
-0
220
0
230
1
0
CIRCLE
5
105
100
AcDbEntity
8
0
100
AcDbCircle
10
1068.4000000000003
20
260.0000000000457
30
0
40
51.499999999999986
210
-0
220
0
230
1
0
CIRCLE
5
106
100
AcDbEntity
8
0
100
AcDbCircle
10
1090.9000000000005
20
-355.79999999995437
30
0
40
1.4999999999999858
210
-0
220
0
230
1
0
CIRCLE
5
107
100
AcDbEntity
8
0
100
AcDbCircle
10
858.98717879392757
20
-139.17272803103683
30
0
40
4.9999999999999991
210
0
220
-0
230
1
0
CIRCLE
5
108
100
AcDbEntity
8
0
100
AcDbCircle
10
1121.340669397571
20
-492.1449393049233
30
0
40
1.4999999999999853
210
0
220
-0
230
1
0
CIRCLE
5
109
100
AcDbEntity
8
0
100
AcDbCircle
10
985.86792873354602
20
-306.27633911388045
30
0
40
1.5000000000000564
210
0
220
-0
230
1
0
CIRCLE
5
110
100
AcDbEntity
8
0
100
AcDbCircle
10
850.39518806952083
20
-120.40773892283764
30
0
40
1.5000000000000564
210
0
220
-0
230
1
0
LWPOLYLINE
5
111
100
AcDbEntity
8
0
100
AcDbPolyline
90
4
70
1
43
0.0
10
1155.1101785524013
20
-513.01032803103737
10
826.38717879392743
20
-62.002372362410583
10
826.38717879392732
20
-129.91271325391185
10
1105.6128455411015
20
-513.01032803103658
0
CIRCLE
5
112
100
AcDbEntity
8
0
100
AcDbCircle
10
2005.8000000000004
20
130.00000000000009
30
0
40
1.4999999999999858
210
0
220
-0
230
1
0
CIRCLE
5
113
100
AcDbEntity
8
0
100
AcDbCircle
10
2005.7999999999993
20
339.99999999999994
30
0
40
1.4999999999999858
210
0
220
-0
230
1
0
CIRCLE
5
114
100
AcDbEntity
8
0
100
AcDbCircle
10
2005.8000000000004
20
-129.99999999999994
30
0
40
1.4999999999999858
210
0
220
-0
230
1
0
CIRCLE
5
115
100
AcDbEntity
8
0
100
AcDbCircle
10
2005.7999999999993
20
-340
30
0
40
1.4999999999999858
210
0
220
-0
230
1
0
CIRCLE
5
116
100
AcDbEntity
8
0
100
AcDbCircle
10
1194.2000000000003
20
-129.99999999999997
30
0
40
1.4999999999999858
210
0
220
-0
230
1
0
CIRCLE
5
117
100
AcDbEntity
8
0
100
AcDbCircle
10
1194.2000000000012
20
-340
30
0
40
1.4999999999999858
210
0
220
-0
230
1
0
CIRCLE
5
118
100
AcDbEntity
8
0
100
AcDbCircle
10
1194.2000000000003
20
130.00000000000006
30
0
40
1.4999999999999858
210
0
220
-0
230
1
0
CIRCLE
5
119
100
AcDbEntity
8
0
100
AcDbCircle
10
1194.2000000000012
20
339.99999999999994
30
0
40
1.4999999999999858
210
0
220
-0
230
1
0
CIRCLE
5
120
100
AcDbEntity
8
0
100
AcDbCircle
10
1235.0000000000002
20
-355.79999999999984
30
0
40
1.4999999999999858
210
0
220
-0
230
1
0
CIRCLE
5
121
100
AcDbEntity
8
0
100
AcDbCircle
10
1470
20
-355.79999999999984
30
0
40
1.5000000000000036
210
0
220
-0
230
1
0
CIRCLE
5
122
100
AcDbEntity
8
0
100
AcDbCircle
10
1730.0000000000002
20
-355.80000000000018
30
0
40
1.5000000000000036
210
0
220
-0
230
1
0
CIRCLE
5
123
100
AcDbEntity
8
0
100
AcDbCircle
10
1965
20
-355.79999999999956
30
0
40
1.4999999999999858
210
0
220
-0
230
1
0
CIRCLE
5
124
100
AcDbEntity
8
0
100
AcDbCircle
10
1730.0000000000002
20
355.79999999999995
30
0
40
1.5000000000000036
210
0
220
-0
230
1
0
CIRCLE
5
125
100
AcDbEntity
8
0
100
AcDbCircle
10
1965
20
355.79999999999961
30
0
40
1.4999999999999858
210
0
220
-0
230
1
0
CIRCLE
5
126
100
AcDbEntity
8
0
100
AcDbCircle
10
1235.0000000000005
20
355.79999999999984
30
0
40
1.4999999999999858
210
0
220
-0
230
1
0
CIRCLE
5
127
100
AcDbEntity
8
0
100
AcDbCircle
10
1470.0000000000002
20
355.79999999999984
30
0
40
1.5000000000000036
210
0
220
-0
230
1
0
LWPOLYLINE
5
128
100
AcDbEntity
8
0
100
AcDbPolyline
90
52
70
1
43
0.0
10
2010.0000000000002
20
-199.99999999999983
10
2010.0000000000002
20
-59.999999999999844
10
2001.6000000000004
20
-59.999999999999915
10
2001.6000000000004
20
60.000000000000071
10
2010.0000000000002
20
60.000000000000149
10
2010.0000000000002
20
200.00000000000006
10
2001.6000000000004
20
200.00000000000014
10
2001.6000000000004
20
320
10
2010.0000000000002
20
319.99999999999994
10
2010.0000000000002
20
360.00000000000011
10
1920
20
359.99999999999994
10
1920.0000000000002
20
351.5999999999998
10
1800.0000000000002
20
351.59999999999974
10
1800.0000000000002
20
359.99999999999977
10
1660.0000000000002
20
359.99999999999989
10
1660.0000000000002
20
351.59999999999997
10
1540.0000000000002
20
351.59999999999991
10
1540.0000000000002
20
359.99999999999989
10
1400.0000000000002
20
359.99999999999989
10
1400.0000000000002
20
351.59999999999974
10
1280.0000000000002
20
351.59999999999991
10
1280.0000000000005
20
359.99999999999989
10
1190.0000000000002
20
359.99999999999994
10
1190.0000000000005
20
319.99999999999989
10
1198.4000000000003
20
319.99999999999994
10
1198.4000000000003
20
200.00000000000003
10
1190.0000000000002
20
200
10
1190.0000000000002
20
60.000000000000128
10
1198.4000000000003
20
60.000000000000057
10
1198.4000000000003
20
-59.999999999999943
10
1190.0000000000002
20
-59.999999999999872
10
1190.0000000000002
20
-199.99999999999989
10
1198.4000000000003
20
-199.99999999999997
10
1198.4000000000003
20
-319.99999999999983
10
1190.0000000000002
20
-319.99999999999977
10
1190.0000000000002
20
-359.99999999999989
10
1280.0000000000005
20
-359.99999999999989
10
1280.0000000000005
20
-351.59999999999991
10
1400.0000000000005
20
-351.59999999999991
10
1400.0000000000002
20
-359.99999999999989
10
1540.0000000000002
20
-359.99999999999977
10
1540.0000000000002
20
-351.59999999999974
10
1660.0000000000002
20
-351.59999999999997
10
1660.0000000000002
20
-359.99999999999994
10
1800.0000000000002
20
-359.99999999999977
10
1800.0000000000005
20
-351.60000000000014
10
1920
20
-351.60000000000002
10
1920.0000000000002
20
-360.00000000000011
10
2010.0000000000002
20
-359.99999999999994
10
2010.0000000000002
20
-319.99999999999977
10
2001.6000000000004
20
-319.99999999999983
10
2001.6000000000004
20
-199.99999999999983
0
LWPOLYLINE
5
129
100
AcDbEntity
8
0
100
AcDbPolyline
90
20
70
1
43
0.0
10
1399.7499999999131
20
-390.00000000000034
10
1399.7499999999131
20
-381.60000000000025
10
1280.2499999999709
20
-381.60000000000025
10
1280.2499999999709
20
-390.00000000000045
10
1189.9999999999709
20
-390.0000000000008
10
1189.9999999999709
20
-436.34999999999997
10
1198.399999999971
20
-436.34999999999997
10
1198.399999999971
20
-481.60000000000019
10
2001.5999999999708
20
-481.60000000000019
10
2001.5999999999708
20
-436.34999999999997
10
2009.9999999999709
20
-436.34999999999997
10
2009.9999999999709
20
-390.00000000000068
10
1919.7499999999714
20
-390.00000000000045
10
1919.7499999999709
20
-381.60000000000019
10
1800.2500000000284
20
-381.60000000000025
10
1800.2500000000286
20
-390.00000000000034
10
1659.7499999999709
20
-390.00000000000063
10
1659.7499999999709
20
-381.60000000000019
10
1540.2499999999711
20
-381.60000000000025
10
1540.2499999999711
20
-390.00000000000063
0
CIRCLE
5
130
100
AcDbEntity
8
0
100
AcDbCircle
10
1959.9999999999709
20
-466.60000000000019
30
0
40
1.4999999999999858
210
-0
220
0
230
1
0
CIRCLE
5
131
100
AcDbEntity
8
0
100
AcDbCircle
10
1599.9999999999709
20
-466.60000000000019
30
0
40
1.5000000000000002
210
-0
220
0
230
1
0
CIRCLE
5
132
100
AcDbEntity
8
0
100
AcDbCircle
10
1239.9999999999709
20
-466.60000000000019
30
0
40
1.4999999999999858
210
-0
220
0
230
1
0
CIRCLE
5
133
100
AcDbEntity
8
0
100
AcDbCircle
10
1599.9999999999709
20
-516.60000000000025
30
0
40
1.5000000000000002
210
-0
220
0
230
1
0
CIRCLE
5
134
100
AcDbEntity
8
0
100
AcDbCircle
10
1239.9999999999709
20
-516.60000000000014
30
0
40
1.4999999999999858
210
-0
220
0
230
1
0
CIRCLE
5
135
100
AcDbEntity
8
0
100
AcDbCircle
10
1959.9999999999709
20
-516.60000000000036
30
0
40
1.4999999999999858
210
-0
220
0
230
1
0
LWPOLYLINE
5
136
100
AcDbEntity
8
0
100
AcDbPolyline
90
4
70
1
43
0.0
10
1207.1999999999712
20
-501.60000000000014
10
1207.1999999999712
20
-541.60000000000014
10
1992.7999999999706
20
-541.60000000000014
10
1992.7999999999706
20
-501.60000000000014
0
LWPOLYLINE
5
137
100
AcDbEntity
8
0
100
AcDbPolyline
90
29
70
1
43
0.0
10
2291.3500000000004
20
351.60000000004572
10
2291.3500000000004
20
360.00000000004616
10
2171.8499999999999
20
360.00000000004616
10
2171.8499999999999
20
351.60000000001816
10
2171.6000000000004
20
351.60000000004584
10
2039.9999999999995
20
351.60000000004658
10
2040.0000000000009
20
319.75000000012409
10
2031.6000000000004
20
319.75000000012409
10
2031.6000000000004
20
200.2500000000579
10
2040.0000000000002
20
200.2500000000579
10
2040.0000000000002
20
59.750000000053056
10
2031.6000000000004
20
59.750000000053049
10
2031.6000000000004
20
-59.749999999961794
10
2040.0000000000002
20
-59.749999999961801
10
2039.9999999999952
20
-200.24999999996675
10
2031.6000000000004
20
-200.24999999996675
10
2031.6000000000004
20
-319.75000000003308
10
2040.0000000000048
20
-319.75000000003303
10
2039.9999999999995
20
-351.59999999995296
10
2086.6000000000004
20
-351.59999999995443
10
2086.6000000000004
20
-359.99999999995453
10
2131.6000000000004
20
-359.99999999995447
10
2131.6000000000004
20
-351.59999999995455
10
2423.2000000000003
20
48.475200000046499
10
2423.2000000000007
20
144.48760000004629
10
2431.6000000000004
20
144.48760000004631
10
2431.6000000000004
20
263.98760000004637
10
2423.1999999999998
20
263.98760000004643
10
2423.1999999999989
20
351.60000000004658
0
CIRCLE
5
138
100
AcDbEntity
8
0
100
AcDbCircle
10
2128.2465093963565
20
-330.73461127384058
30
0
40
1.4999999999999858
210
-0
220
0
230
1
0
CIRCLE
5
139
100
AcDbEntity
8
0
100
AcDbCircle
10
2399.1919907244069
20
41.002589108245495
30
0
40
1.5000000000000568
210
-0
220
0
230
1
0
CIRCLE
5
140
100
AcDbEntity
8
0
100
AcDbCircle
10
2263.7192500603815
20
-144.86601108279751
30
0
40
1.5000000000000568
210
-0
220
0
230
1
0
CIRCLE
5
141
100
AcDbEntity
8
0
100
AcDbCircle
10
2109.1000000000004
20
-355.79999999995437
30
0
40
1.4999999999999858
210
-0
220
0
230
1
0
CIRCLE
5
142
100
AcDbEntity
8
0
100
AcDbCircle
10
2131.5999999999999
20
260.00000000004593
30
0
40
51.499999999999986
210
-0
220
0
230
1
0
CIRCLE
5
143
100
AcDbEntity
8
0
100
AcDbCircle
10
2231.6000000000004
20
355.80000000004588
30
0
40
1.5000000000000568
210
-0
220
0
230
1
0
CIRCLE
5
144
100
AcDbEntity
8
0
100
AcDbCircle
10
2214.1320712664547
20
-306.27633911388017
30
0
40
1.5000000000000568
210
-0
220
0
230
1
0
CIRCLE
5
145
100
AcDbEntity
8
0
100
AcDbCircle
10
2078.6593306024297
20
-492.1449393049233
30
0
40
1.4999999999999858
210
-0
220
0
230
1
0
CIRCLE
5
146
100
AcDbEntity
8
0
100
AcDbCircle
10
2349.6048119304796
20
-120.4077389228371
30
0
40
1.5000000000000568
210
-0
220
0
230
1
0
LWPOLYLINE
5
147
100
AcDbEntity
8
0
100
AcDbPolyline
90
4
70
1
43
0.0
10
2044.8898214475998
20
-513.01032803103749
10
2094.3871544588997
20
-513.01032803103658
10
2373.612821206073
20
-129.91271325391125
10
2373.612821206073
20
-62.002372362410476
0
LWPOLYLINE
5
148
100
AcDbEntity
8
0
100
AcDbPolyline
90
36
70
1
43
0.0
10
1659.7499999999843
20
773.19999999999959
10
1659.7499999999843
20
781.59999999999968
10
1540.2499999999429
20
781.59999999999945
10
1540.2499999999429
20
773.19999999999936
10
1399.749999999894
20
773.19999999999993
10
1399.749999999894
20
781.59999999999911
10
1280.2499999999611
20
781.59999999999877
10
1280.2499999999611
20
773.19999999999766
10
1189.9999999999634
20
773.19999999999732
10
1189.9999999999634
20
641.59999999999854
10
1198.3999999999639
20
641.59999999999843
10
1198.3999999999642
20
521.59999999999843
10
1189.9999999999638
20
521.59999999999832
10
1189.9999999999641
20
389.99999999999886
10
1280.2499999999623
20
389.99999999999972
10
1280.2499999999623
20
381.59999999999826
10
1399.749999999895
20
381.5999999999986
10
1399.7499999998947
20
389.99999999999795
10
1540.2499999999438
20
389.99999999999915
10
1540.2499999999438
20
381.599999999999
10
1659.7499999999852
20
381.59999999999945
10
1659.7499999999852
20
389.99999999999943
10
1800.2500000000341
20
389.99999999999909
10
1800.2500000000341
20
381.59999999999997
10
1919.749999999967
20
381.60000000000002
10
1919.749999999967
20
390.00000000000142
10
2009.9999999999648
20
390.00000000000085
10
2009.9999999999645
20
521.60000000000025
10
2001.5999999999644
20
521.60000000000036
10
2001.599999999964
20
641.60000000000025
10
2009.9999999999641
20
641.60000000000059
10
2009.9999999999638
20
773.19999999999993
10
1919.7499999999661
20
773.19999999999879
10
1919.7499999999661
20
781.59999999999991
10
1800.2500000000332
20
781.59999999999968
10
1800.2500000000332
20
773.20000000000061
0
CIRCLE
5
149
100
AcDbEntity
8
0
100
AcDbCircle
10
1959.9999999999345
20
1070.1999999999998
30
0
40
1.4999999999999858
210
-0
220
0
230
1
0
CIRCLE
5
150
100
AcDbEntity
8
0
100
AcDbCircle
10
1599.9999999999345
20
1070.199999999998
30
0
40
1.5000000000000002
210
-0
220
0
230
1
0
CIRCLE
5
151
100
AcDbEntity
8
0
100
AcDbCircle
10
1239.9999999999345
20
1070.1999999999964
30
0
40
1.4999999999999858
210
-0
220
0
230
1
0
CIRCLE
5
152
100
AcDbEntity
8
0
100
AcDbCircle
10
1194.1999999999352
20
851.19999999999607
30
0
40
1.4999999999999858
210
-0
220
0
230
1
0
CIRCLE
5
153
100
AcDbEntity
8
0
100
AcDbCircle
10
1469.999999999854
20
807.39999999999759
30
0
40
1.5000000000000036
210
-0
220
0
230
1
0
CIRCLE
5
154
100
AcDbEntity
8
0
100
AcDbCircle
10
1730.0000000000173
20
807.39999999999873
30
0
40
1.5000000000000036
210
-0
220
0
230
1
0
CIRCLE
5
155
100
AcDbEntity
8
0
100
AcDbCircle
10
2005.7999999999352
20
1067.2
30
0
40
1.4999999999999858
210
-0
220
0
230
1
0
CIRCLE
5
156
100
AcDbEntity
8
0
100
AcDbCircle
10
2005.7999999999354
20
851.20000000000016
30
0
40
1.4999999999999858
210
-0
220
0
230
1
0
CIRCLE
5
157
100
AcDbEntity
8
0
100
AcDbCircle
10
1964.9999999999382
20
807.40000000000032
30
0
40
1.4999999999999858
210
-0
220
0
230
1
0
CIRCLE
5
158
100
AcDbEntity
8
0
100
AcDbCircle
10
1234.9999999999332
20
807.39999999999691
30
0
40
1.4999999999999858
210
-0
220
0
230
1
0
CIRCLE
5
159
100
AcDbEntity
8
0
100
AcDbCircle
10
1194.1999999999339
20
1067.1999999999962
30
0
40
1.4999999999999858
210
-0
220
0
230
1
0
LWPOLYLINE
5
160
100
AcDbEntity
8
0
100
AcDbPolyline
90
24
70
1
43
0.0
10
2009.9999999999352
20
1019.1999999999995
10
2009.9999999999345
20
1115.2
10
1189.9999999999343
20
1115.1999999999964
10
1189.9999999999341
20
1019.1999999999955
10
1198.3999999999342
20
1019.1999999999962
10
1198.3999999999346
20
899.19999999999629
10
1189.9999999999345
20
899.19999999999561
10
1189.9999999999359
20
803.19999999999595
10
1279.9999999999309
20
803.19999999999698
10
1279.9999999999307
20
811.59999999999718
10
1399.9999999998104
20
811.59999999999764
10
1399.9999999998154
20
803.19999999999732
10
1539.9999999998959
20
803.19999999999834
10
1539.9999999998943
20
811.59999999999854
10
1659.9999999999761
20
811.59999999999911
10
1659.9999999999745
20
803.19999999999845
10
1800.0000000000559
20
803.19999999999925
10
1800.0000000000609
20
811.59999999999945
10
1919.9999999999407
20
811.59999999999991
10
1919.9999999999404
20
803.19999999999993
10
2009.9999999999359
20
803.19999999999982
10
2009.9999999999359
20
899.19999999999948
10
2001.5999999999358
20
899.20000000000027
10
2001.5999999999353
20
1019.2000000000002
0
CIRCLE
5
161
100
AcDbEntity
8
0
100
AcDbCircle
10
1239.9999999999343
20
1180.1999999999978
30
0
40
1.4999999999999858
210
-0
220
0
230
1
0
CIRCLE
5
162
100
AcDbEntity
8
0
100
AcDbCircle
10
1959.9999999999343
20
1180.2000000000041
30
0
40
1.4999999999999858
210
-0
220
0
230
1
0
CIRCLE
5
163
100
AcDbEntity
8
0
100
AcDbCircle
10
1599.9999999999343
20
1180.200000000001
30
0
40
1.5000000000000002
210
-0
220
0
230
1
0
LWPOLYLINE
5
164
100
AcDbEntity
8
0
100
AcDbPolyline
90
4
70
1
43
0.0
10
1207.1999999999332
20
1235.1999999999973
10
1207.1999999999341
20
1135.1999999999973
10
1992.7999999999352
20
1135.1999999999978
10
1992.7999999999352
20
1235.1999999999978
0
CIRCLE
5
165
100
AcDbEntity
8
0
100
AcDbCircle
10
1194.1499999999335
20
1681.3782000000328
30
0
40
1.4999999999999869
210
-0
220
0
230
1
0
CIRCLE
5
166
100
AcDbEntity
8
0
100
AcDbCircle
10
1964.9999999999361
20
1739.2376000000436
30
0
40
1.4999999999999869
210
-0
220
0
230
1
0
CIRCLE
5
167
100
AcDbEntity
8
0
100
AcDbCircle
10
2005.8499999999362
20
1397.2594000000095
30
0
40
1.4999999999999869
210
-0
220
0
230
1
0
CIRCLE
5
168
100
AcDbEntity
8
0
100
AcDbCircle
10
1469.9999999999338
20
1739.2376000000443
30
0
40
1.5000000000000047
210
-0
220
0
230
1
0
CIRCLE
5
169
100
AcDbEntity
8
0
100
AcDbCircle
10
1729.9999999999361
20
1739.237600000044
30
0
40
1.5000000000000047
210
-0
220
0
230
1
0
CIRCLE
5
170
100
AcDbEntity
8
0
100
AcDbCircle
10
1234.9999999999338
20
1739.2376000000443
30
0
40
1.4999999999999869
210
-0
220
0
230
1
0
CIRCLE
5
171
100
AcDbEntity
8
0
100
AcDbCircle
10
1194.1499999999337
20
1397.2594000000092
30
0
40
1.4999999999999869
210
-0
220
0
230
1
0
LWPOLYLINE
5
172
100
AcDbEntity
8
0
100
AcDbPolyline
90
4
70
1
43
0.0
10
1779.9999999999352
20
1518.4376000000441
10
1419.9999999999352
20
1518.4376000000439
10
1419.9999999999352
20
1618.4376000000441
10
1779.9999999999345
20
1618.4376000000443
0
CIRCLE
5
173
100
AcDbEntity
8
0
100
AcDbCircle
10
2005.8499999999362
20
1681.3782000000328
30
0
40
1.4999999999999869
210
-0
220
0
230
1
0
LWPOLYLINE
5
174
100
AcDbEntity
8
0
100
AcDbPolyline
90
24
70
1
43
0.0
10
2009.9999999999345
20
1459.0688000000227
10
2001.6999999999348
20
1459.0688000000227
10
2001.6999999999343
20
1619.5688000000225
10
2009.9999999999359
20
1619.5688000000225
10
2009.9999999999361
20
1743.4376000000448
10
1920.2499999999336
20
1743.4376000000454
10
1920.2499999999336
20
1735.0376000000456
10
1799.7499999999334
20
1735.0376000000447
10
1799.7499999999336
20
1743.4376000000448
10
1660.2499999999336
20
1743.4376000000448
10
1660.2499999999336
20
1735.037600000044
10
1539.7499999999336
20
1735.0376000000438
10
1539.7499999999336
20
1743.4376000000439
10
1400.2499999999338
20
1743.4376000000439
10
1400.2499999999338
20
1735.0376000000438
10
1279.7499999999341
20
1735.037600000044
10
1279.7499999999338
20
1743.4376000000441
10
1189.9999999999338
20
1743.4376000000441
10
1189.9999999999336
20
1619.5688000000202
10
1198.2999999999336
20
1619.5688000000205
10
1198.2999999999338
20
1459.0688000000202
10
1189.9999999999336
20
1459.0688000000205
10
1189.9999999999336
20
1335.1999999999978
10
2009.9999999999354
20
1335.1999999999978
0
LWPOLYLINE
5
175
100
AcDbEntity
8
0
100
AcDbPolyline
90
11
70
1
43
0.0
10
2236.4499999999348
20
1735.0376000000479
10
2236.4499999999348
20
1743.0376000000479
10
2116.4499999999348
20
1743.0376000000474
10
2116.4499999999348
20
1735.0376000000472
10
2034.6999999999346
20
1735.037600000047
10
2034.6999999999348
20
1619.3188000000234
10
2026.6999999999348
20
1619.3188000000232
10
2026.6999999999357
20
1459.3188000000234
10
2034.6999999999357
20
1459.3188000000234
10
2034.6999999999357
20
1335.6869188917165
10
2325.7719250060049
20
1735.0376000000483
0
CIRCLE
5
176
100
AcDbEntity
8
0
100
AcDbCircle
10
2030.6999999999355
20
1539.3188000000234
30
0
40
1.5000000000000047
210
-0
220
0
230
1
0
CIRCLE
5
177
100
AcDbEntity
8
0
100
AcDbCircle
10
2176.4499999999348
20
1739.0376000000474
30
0
40
1.4999999999999869
210
-0
220
0
230
1
0
CIRCLE
5
178
100
AcDbEntity
8
0
100
AcDbCircle
10
1135.2999999999342
20
1538.9059459841524
30
0
40
5.0000000000000036
210
-0
220
0
230
1
0
LWPOLYLINE
5
179
100
AcDbEntity
8
0
100
AcDbPolyline
90
11
70
1
43
0.0
10
963.54999999993402
20
1743.0376000000438
10
963.54999999993402
20
1735.0376000000438
10
874.22807499386397
20
1735.0376000000438
10
1165.2999999999342
20
1335.6869188917133
10
1165.2999999999342
20
1459.3188000000202
10
1173.2999999999342
20
1459.3188000000202
10
1173.299999999934
20
1619.3188000000202
10
1165.2999999999342
20
1619.3188000000202
10
1165.299999999934
20
1735.0376000000438
10
1083.549999999934
20
1735.0376000000438
10
1083.549999999934
20
1743.0376000000438
0
CIRCLE
5
180
100
AcDbEntity
8
0
100
AcDbCircle
10
1169.2999999999342
20
1539.3188000000202
30
0
40
1.5000000000000047
210
0
220
-0
230
1
0
CIRCLE
5
181
100
AcDbEntity
8
0
100
AcDbCircle
10
1023.549999999934
20
1739.0376000000438
30
0
40
1.4999999999999869
210
0
220
-0
230
1
0
LWPOLYLINE
5
182
100
AcDbEntity
8
0
100
AcDbPolyline
90
24
70
1
43
0.0
10
2009.9999999999336
20
1854.5376000000488
10
2001.6999999999337
20
1854.5376000000488
10
2001.699999999933
20
1975.0376000000488
10
2009.9999999999338
20
1975.0376000000485
10
2009.9999999999327
20
2064.5376000000488
10
1189.99999999993
20
2064.5376000000379
10
1189.9999999999313
20
1975.0376000000381
10
1198.2999999999313
20
1975.0376000000379
10
1198.2999999999329
20
1854.5376000000379
10
1189.9999999999327
20
1854.5376000000379
10
1189.9999999999338
20
1773.0376000000374
10
1279.9999999999338
20
1773.0376000000379
10
1279.9999999999338
20
1765.0376000000379
10
1399.9999999999341
20
1765.0376000000397
10
1399.9999999999341
20
1773.0376000000399
10
1539.9999999999338
20
1773.0376000000415
10
1539.9999999999338
20
1765.0376000000415
10
1659.9999999999341
20
1765.0376000000433
10
1659.9999999999341
20
1773.0376000000433
10
1799.9999999999338
20
1773.0376000000451
10
1799.9999999999338
20
1765.0376000000449
10
1919.9999999999341
20
1765.037600000047
10
1919.9999999999341
20
1773.0376000000467
10
2009.9999999999366
20
1773.0376000000488
0
LWPOLYLINE
5
183
100
AcDbEntity
8
0
100
AcDbPolyline
90
4
70
1
43
0.0
10
1779.9999999999318
20
1939.7876000000449
10
1779.9999999999332
20
1839.7876000000449
10
1419.9999999999329
20
1839.7876000000401
10
1419.9999999999316
20
1939.7876000000401
0
LWPOLYLINE
5
184
100
AcDbEntity
8
0
100
AcDbPolyline
90
4
70
1
43
0.0
10
1209.9999999999304
20
2084.5376000000315
10
1589.9999999999304
20
2084.5376000000415
10
1589.9999999999272
20
2204.5376000000415
10
1209.9999999999272
20
2204.5376000000315
0
LWPOLYLINE
5
185
100
AcDbEntity
8
0
100
AcDbPolyline
90
4
70
1
43
0.0
10
1609.9999999999304
20
2084.5376000000419
10
1989.9999999999304
20
2084.537600000047
10
1989.9999999999286
20
2204.537600000047
10
1609.9999999999286
20
2204.5376000000419
0
ENDSEC
0
SECTION
2
OBJECTS
0
DICTIONARY
5
C
100
AcDbDictionary
3
ACAD_GROUP
350
D
3
ACAD_MLINESTYLE
350
17
0
DICTIONARY
5
D
100
AcDbDictionary
0
DICTIONARY
5
1A
330
C
100
AcDbDictionary
0
DICTIONARY
5
17
100
AcDbDictionary
0
ENDSEC
0
EOF
